Главная » Uncategorized » Razzia — Abschaum Erwache

Razzia — Abschaum Erwache

Razzia - Abschaum Erwache

[Intro:]
    D                              C
E:|--------------------------------------------------------------|
H:|--------------------------------------------------------------|
G:|----------12-14-12----------14--------9-10-12-10-9-------12---|
D:|-12-14-15----------15-14-12-----10-12--------------12-10------|
A:|--------------------------------------------------------------|
E:|--------------------------------------------------------------|

    B                         A
E:|--------------------------------------------------|
H:|--------------------------------------------------|
G:|------7-8-10-8-7------10------9--7--------9--7----| [wiederholen]
D:|-8-10------------10-8------7--------7--7--------7-|
A:|--------------------------------------------------|
E:|--------------------------------------------------|

D
...
 C
Lagen wir alle doch zu lang im Dreck
 B
Macht und Geld reicht das nicht?
A
Abschaum erwache!

D
Abschaum nennen sie alle die
 C
Die nicht genauso sind wie sie
 B
Doch jedem das Selbstgefьhl
A -
Abschaum erwache!

[Bridge:]
D-C-D-A [3mal]

D-F-D#-D#

[Intro zweimal]

Ihr wollt uns ...
Nur noch eine Runde spielen wir
Mit dir kцnnen nichts verlieren
Abschaum erwache!

D
Die Geduld, der Unterschied

C
...

B
... haben Deutschland, sonst nichts

A
Abschaum erwache!

D
Abschaum erwacht!

---
herausgehцrt von Alex a.k.a. Killerblau(@web.de)
http://killerblau.de.vu/ _ http://punk-texte.de.vu/
Auf das die Monarchie verreckt
Lagen wir alle schon zu lang im Dreck
Macht und Geld reicht uns nicht

ABSCHAUM ERWACHE!

Abschaum nennen sie alle die
Die nicht genauso sind wie sie
Doch jedem das Selbstgefühl

ABSCHAUM ERWACHE!
D-C-D-A [3mal] D-F-D#-D#
Die Säcke, die uns heut' regieren
nur nach andren Stimmen agieren
merkt ihr,wir können nichts verlieren

ABSCHAUM ERWACHE!

Die Geduld, der Unterschicht
reicht uns hier längst nicht
länger täuschen sie uns nicht

ABSCHAUM ERWACHE!

Abschaum erwacht!
Реклама

Добавить комментарий

Заполните поля или щелкните по значку, чтобы оставить свой комментарий:

Логотип WordPress.com

Для комментария используется ваша учётная запись WordPress.com. Выход / Изменить )

Фотография Twitter

Для комментария используется ваша учётная запись Twitter. Выход / Изменить )

Фотография Facebook

Для комментария используется ваша учётная запись Facebook. Выход / Изменить )

Google+ photo

Для комментария используется ваша учётная запись Google+. Выход / Изменить )

Connecting to %s