Главная » accords » exploited

exploited

The Exploited - Don't blame me
from "Beat the Bastards", 1996
[Intro] (Bass):
G|-----------------------------------------------------|
D|-----------------------------------------------------| x2
A|---------1----1-1-1-1-4-1------------------------1---|
E|-3-3-3-3---3----------------1-1-1-1-4-1--3-3-3-3---3-|
[Riff 1]*:
E|----------|----------|----------|-----------|
B|----------|----------|----------|-----------|
G|----------|-3-3-3-6-3|----------|-----------|
D|-5-5-5-8-5|-3-3-3-6-3|-3-3-3-6-3|-5-5-5-8-5-|
A|-5-5-5-8-5|-1-1-1-4-1|-3-3-3-6-3|-5-5-5-8-5-|
E|-3-3-3-6-3|----------|-1-1-1-4-1|-3-3-3-6-3-|
   *каждую часть по два раза
[Riff 2] (Main):
E|-------------------------------------------------|
B|-------------------------------------------------|
G|-------------------------------------------------|
D|-------------------------------------5-5-5-6-6-6-|
A|-5-5-5-6-5-3-5-5-5-6-5-3-5-5-5-6-5-3-3-3-3-4-4-4-|
E|-3-3-3-4-3-1-3-3-3-4-3-1-3-3-3-4-3-1-------------|
[Riff 3] (Chorus):
E|---------------------------|
B|---------------------------|
G|---------------------------|
D|-8-8-8\7/8-8-8-------6-6-6-|
A|-6-6-6\5/6-6-6-7-7-7-4-4-4-|
E|---------------5-5-5-------|
They blame television they blame rave scenes
Blame video nasties and computer games
Blame poverty parents consumer greed
Lack of education but don't blame me
Don't blame me don't blame me don't blame me blame
Blame it on the students religion too
Blame Garry Adams and Paisley too
Blame young offenders out of control
Blame it on the army but we blame you
Don't blame me don't blame me don't blame me
Blame immigrations for the mess you're in
Blame religious cults who don't fit in
Blame the queen mother, the NHS
Sick of all your bullshit we just cant win
Don't blame me don't blame me don't blame me
Blame it on the students religion too
Blame Garry Adams and Paisley too
Blame young offenders out of control
Blame it on the army but we blame you
Don't blame me don't blame me
Don't blame me don't blame me
Реклама

Добавить комментарий

Заполните поля или щелкните по значку, чтобы оставить свой комментарий:

Логотип WordPress.com

Для комментария используется ваша учётная запись WordPress.com. Выход / Изменить )

Фотография Twitter

Для комментария используется ваша учётная запись Twitter. Выход / Изменить )

Фотография Facebook

Для комментария используется ваша учётная запись Facebook. Выход / Изменить )

Google+ photo

Для комментария используется ваша учётная запись Google+. Выход / Изменить )

Connecting to %s