Главная » accords » zombie

zombie

Em       C
   Another head hangs lowly
   G                D
   Child is slowly taken
   Em                 C
   And the violence caused such silence
   G                D
   Who are we mistaken
   Em
   May you see, it's not me
   C
   it's not my family
   G
   in your head, in your head
   D
   they are fighting
   - - - -
   Chorus
   - - - -
   Em
   With their tanks, and their bombs,
   C
   and their bombs, and their guns
   G                           D
   In your head, in your head they are cryin'
   Em         C
   In your head, In your head
   G               D
   Zombie, etc.
   Em           C
   What's in your head, in your head
   G               D
   Zombie, etc.

   Em     C
   Another mother's breakin'
   G              D
   heart is taking over

   Em      C
   And the violence causes silence
   G          D
   we must be mistaken
   it's the same old theme since 1916
   in your head,
   in your head they're still fightin'
Guitar Solo:
------------

e -7/8----5/7--------------|-7/8----5/7---7---7---7--|-7/8-----5/7---7---7---7--|
B -------------------------|-------------------------|--------------------------|
G -------------------------|-------------------------|--------------------------|
D -------------------------|-------------------------|--------------------------|
A -------------------------|-------------------------|--------------------------|
E -------------------------|-------------------------|--------------------------|


e -7/8-----5/7--7-7-7-7-7-7|-7/8-----5/7--7---7---7-7|-7/8-----5/7--7---7---7-7|
B --------------7-7-7-7-7-7|-7/8-----5/7--7---7---7-7|-7/8-----5/7--7---7---7-7|
G -------------------------|-------------------------|-------------------------|
D -------------------------|-------------------------|-------------------------|
A -------------------------|-------------------------|-------------------------|
E -------------------------|-------------------------|-------------------------|


e -7/8-----5/7-------------|-7\5-----5------7-----10-|-10/12--12\10-10---10--10|
B -7/8-----5/7-------------|-7\5-----5------7-----10-|-10/12--12\10-10---10--10|
G -------------------------|-------------------------|-------------------------|
D -------------------------|-------------------------|-------------------------|
A -------------------------|-------------------------|-------------------------|
E -------------------------|-------------------------|-------------------------|


e -10/12--12\10--10---10-10|-10\7----7---------------|-7\5----5/7----7------7-7|
B -10/12--12\10--10---10-10|-10\7----7---------------|-7\5----5/7----7------7-7|
G -------------------------|-------------------------|-------------------------|
D -------------------------|-------------------------|-------------------------|
A -------------------------|-------------------------|-------------------------|
E -------------------------|-------------------------|-------------------------|


e -7/8-----5/7----7-----7-7|-7/8-----5/7----7-----7-7|-7/8----5/7--------------|
B -7/8-----5/7----7-----7-7|-7/8-----5/7----7-----7-7|-7/8----5/7--------------|
G -------------------------|-------------------------|-------------------------|
D -------------------------|-------------------------|-------------------------|
A -------------------------|-------------------------|-------------------------|
E -------------------------|-------------------------|-------------------------|


e -7\5------5------------5-|-7-----------------------|
B -7\5------5------------5-|-7-----------------------|
G -------------------------|-9-----------------------|
D -------------------------|-9-----------------------|
A -------------------------|-7-----------------------|
E -------------------------|-0-----------------------|
Реклама

Добавить комментарий

Заполните поля или щелкните по значку, чтобы оставить свой комментарий:

Логотип WordPress.com

Для комментария используется ваша учётная запись WordPress.com. Выход / Изменить )

Фотография Twitter

Для комментария используется ваша учётная запись Twitter. Выход / Изменить )

Фотография Facebook

Для комментария используется ваша учётная запись Facebook. Выход / Изменить )

Google+ photo

Для комментария используется ваша учётная запись Google+. Выход / Изменить )

Connecting to %s